Double Hoe 7

Double Hoe 7

written by some old british guy
ghetto-ized by DJ Jujy and MC WhiteBread

tune down 5 steps (ADGCea)

intro(shitar 1-whitey)
a|-----4--3-----------4--3--2\1/2--|
e|-2-3-----------2-3---------------|

main bassline(faggotar 2-jujy)
A|-0h2-2-2-2-0-0-0-0h3-3-3-2-2-2-|

main riff(both geetarz)
D|-2h4-4-4-4-2-2-2-2h5-5-5-4-4-4-|
A|-0h2-2-2-2-0-0-0-0h3-3-3-2-2-2-|

break(guitar2)
a|-2-3-4-3-2-3-4-3-|
fade in and out using volume knob

break(geetur1)
a|---5---6---7---6--|
e|---5---6---7---6--|
C|---6---7---8---7--|
G|---7---8---9---8--|
D|-7-7-8-8-9-9-8-8--|
A|-5---6---7---6----|
 
outro solo(gitar 1)
part 1 is just the intro faster and part 2 
is the the intro an octave higher